DICAS, ESTUDOS, PALPITES E MACETES SOBRE A LOTO FÁCIL. & LOTERIAS EM GERAL!!!

    LOTOFACIL 25 DEZENAS COM 13 FIXAS - REDUZIDO

    Compartilhe

    Andrade

    Mensagens: 59
    Data de inscrição: 11/02/2009

    LOTOFACIL 25 DEZENAS COM 13 FIXAS - REDUZIDO

    Mensagem por Andrade em Dom Fev 21, 2010 1:51 pm

    Olá Amigos,

    Vou tentar postar uma planilha com todas as 25 dezenas, tendo como base uma que o amigo Jacobino colocou ha algum tempo, são 13 dezenas fixas, 03 quentes, 03 médias e 06 mornas, ou seja piores, o jogo é de 24 jgs e R$ 30,00 se alguem tiver duvidas na montagem tenho uma planilha que monta, um abraço, Andrade,,, boa premiação acertando as fixas,,,


    -----------------

    1-14-2-3-15-4-5-6-7-8-9-10-11-12-13---

    1-2-3-15-4-5-6-7-8-9-10-16-11-12-13---

    1-2-3-15-4-5-6-7-8-9-10-19-11-12-13---

    1-2-3-15-4-5-6-7-17-8-9-10-11-12-13---

    1-2-3-15-4-5-6-7-8-18-9-10-11-12-13---

    1-2-3-15-4-5-6-7-8-9-10-20-11-12-13---

    1-2-3-15-4-5-6-7-8-9-10-21-11-12-13---

    1-2-3-15-4-5-6-7-8-9-10-23-11-12-13---

    1-2-3-15-4-5-6-7-8-9-10-22-11-12-13---

    1-2-3-15-4-5-6-7-8-9-10-11-12-24-13---

    1-2-3-15-4-5-6-7-8-9-10-11-12-25-13---

    1-14-2-3-4-5-6-7-8-9-10-16-11-12-13---

    1-14-2-3-4-5-6-7-8-9-10-19-11-12-13---

    1-14-2-3-4-5-6-7-17-8-9-10-11-12-13---

    1-14-2-3-4-5-6-7-8-18-9-10-11-12-13---

    1-14-2-3-4-5-6-7-8-9-10-20-11-12-13---

    1-14-2-3-4-5-6-7-8-9-10-21-11-12-13---

    1-14-2-3-4-5-6-7-8-9-10-23-11-12-13---

    1-14-2-3-4-5-6-7-8-9-10-22-11-12-13---

    1-14-2-3-4-5-6-7-8-9-10-11-12-24-13---

    1-14-2-3-4-5-6-7-8-9-10-11-12-25-13---

    1-2-3-4-5-6-7-8-9-10-16-19-11-12-13---

    1-2-3-4-5-6-7-17-8-9-10-16-11-12-13---

    1-2-3-4-5-6-7-8-18-9-10-16-11-12-13---

    - - - - - - - - - - - - - - - - -



    -Fixas- -1-2-3-4-5-6-7-8-9-10-11-12-13

    -Quentes- -14-15-16

    -Média- -17-18-19

    -Mornas- -20-21-22-23-24-25-

    Bene

    Mensagens: 1
    Data de inscrição: 12/04/2010

    Se possível manda esta planilha para mim

    Mensagem por Bene em Seg Abr 12, 2010 9:08 pm

    Andrade escreveu:Olá Amigos,

    Vou tentar postar uma planilha com todas as 25 dezenas, tendo como base uma que o amigo Jacobino colocou ha algum tempo, são 13 dezenas fixas, 03 quentes, 03 médias e 06 mornas, ou seja piores, o jogo é de 24 jgs e R$ 30,00 se alguem tiver duvidas na montagem tenho uma planilha que monta, um abraço, Andrade,,, boa premiação acertando as fixas,,,


    -----------------

    1-14-2-3-15-4-5-6-7-8-9-10-11-12-13---

    1-2-3-15-4-5-6-7-8-9-10-16-11-12-13---

    1-2-3-15-4-5-6-7-8-9-10-19-11-12-13---

    1-2-3-15-4-5-6-7-17-8-9-10-11-12-13---

    1-2-3-15-4-5-6-7-8-18-9-10-11-12-13---

    1-2-3-15-4-5-6-7-8-9-10-20-11-12-13---

    1-2-3-15-4-5-6-7-8-9-10-21-11-12-13---

    1-2-3-15-4-5-6-7-8-9-10-23-11-12-13---

    1-2-3-15-4-5-6-7-8-9-10-22-11-12-13---

    1-2-3-15-4-5-6-7-8-9-10-11-12-24-13---

    1-2-3-15-4-5-6-7-8-9-10-11-12-25-13---

    1-14-2-3-4-5-6-7-8-9-10-16-11-12-13---

    1-14-2-3-4-5-6-7-8-9-10-19-11-12-13---

    1-14-2-3-4-5-6-7-17-8-9-10-11-12-13---

    1-14-2-3-4-5-6-7-8-18-9-10-11-12-13---

    1-14-2-3-4-5-6-7-8-9-10-20-11-12-13---

    1-14-2-3-4-5-6-7-8-9-10-21-11-12-13---

    1-14-2-3-4-5-6-7-8-9-10-23-11-12-13---

    1-14-2-3-4-5-6-7-8-9-10-22-11-12-13---

    1-14-2-3-4-5-6-7-8-9-10-11-12-24-13---

    1-14-2-3-4-5-6-7-8-9-10-11-12-25-13---

    1-2-3-4-5-6-7-8-9-10-16-19-11-12-13---

    1-2-3-4-5-6-7-17-8-9-10-16-11-12-13---

    1-2-3-4-5-6-7-8-18-9-10-16-11-12-13---

    - - - - - - - - - - - - - - - - -



    -Fixas- -1-2-3-4-5-6-7-8-9-10-11-12-13

    -Quentes- -14-15-16

    -Média- -17-18-19

    -Mornas- -20-21-22-23-24-25-
    Se possível manda esta planilha para mim

    Convidad
    Convidado

    muito legal essa!

    Mensagem por Convidad em Seg Abr 12, 2010 9:37 pm

    manda pra mim por favor a planilha
    mauriciomawmaw@hotmail.com

    Kalfas

    Mensagens: 365
    Data de inscrição: 13/09/2009

    13 Fixas!

    Mensagem por Kalfas em Ter Abr 13, 2010 9:23 am

    Amigos,
    não quero desanimar vocês, mas a probabilidade e acerto de 13 dezenas é 1 em 5.200.300, enquanto a probabilidade de acerto de 15 dezenas é 1 em 3.268.760, um abraço!

    danieljau

    Mensagens: 42
    Data de inscrição: 27/06/2009

    Re: LOTOFACIL 25 DEZENAS COM 13 FIXAS - REDUZIDO

    Mensagem por danieljau em Ter Abr 13, 2010 3:31 pm

    Kalfas escreveu:Amigos,
    não quero desanimar vocês, mas a probabilidade e acerto de 13 dezenas é 1 em 5.200.300, enquanto a probabilidade de acerto de 15 dezenas é 1 em 3.268.760, um abraço!

    Olá kalfas td bem... Realmente 25-13-13 se 13 = 1 em 5.200.300 se fosse sorteada somente 13...

    Mas como são sorteados 15 então a conta é a seguinte 25-15-13se13 = 1 em 49.527 chances de acertar as 13fixas no sorteio de 15
    acertar 14fixas----14se14= 1 em 297.160
    acertar 12fixas----12se12= 1 em 11.430
    acertar 11fixas----11se11= 1 em 3.266
    acertar 10fixas----10se10= 1 em 1.089
    acertar 09fixas----9se9= 1 em 409
    acertar 08fixas----8se8= 1 em 169
    acertar 07fixas----7se7= 1 em 75
    acertar 06fixas----6se6= 1 em 36
    acertar 05fixas----5se5= 1 em 18
    acertar 04fixas----4se4= 1 em 10
    acertar 03fixas----3se3= 1 em 6
    acertar 02fixas----2se2= 1 em 3
    acertar 01fixas----1se1= 1 em 2

    Acho que é isso...

    Abraço e sorte a todos

    Att. Daniel

    Kalfas

    Mensagens: 365
    Data de inscrição: 13/09/2009

    Re: LOTOFACIL 25 DEZENAS COM 13 FIXAS - REDUZIDO

    Mensagem por Kalfas em Qua Abr 14, 2010 8:00 am

    Oi Daniel,
    os seus cálculos fazem muito sentido.
    O problema é que números dão diferentes resultados.
    Usando o calculo que multiplique as 13 maiores e divide pela multiplicação das 15 menores, chega em 24.763.
    Fazendo a matriz 25.15.13.15 dá 5.429. A matriz 25.15.14.15 dá 102.568 combinações.
    Fazendo a matriz em questão que o amigo Andrade postou, ou seja 25.15.15.15 com 13 fixas dá os famosos 66 cartões que alguns sites até vendem este jogo.
    Agora de 66 abaixar para 24, não sei se tem as mesmas garantias.
    Sugiro fazer 2 simulações com as mesmas 13 fixas no cologa e na sua planilha Andrade, assim pode ferificar se as 42 excedentes ou faltantes, oferecem risco de não acerto. Um abraço!

    danieljau

    Mensagens: 42
    Data de inscrição: 27/06/2009

    Re: LOTOFACIL 25 DEZENAS COM 13 FIXAS - REDUZIDO

    Mensagem por danieljau em Qua Abr 14, 2010 12:47 pm

    Kalfas escreveu:Oi Daniel,
    os seus cálculos fazem muito sentido.
    O problema é que números dão diferentes resultados.
    Usando o calculo que multiplique as 13 maiores e divide pela multiplicação das 15 menores, chega em 24.763.
    Fazendo a matriz 25.15.13.15 dá 5.429. A matriz 25.15.14.15 dá 102.568 combinações.
    Fazendo a matriz em questão que o amigo Andrade postou, ou seja 25.15.15.15 com 13 fixas dá os famosos 66 cartões que alguns sites até vendem este jogo.
    Agora de 66 abaixar para 24, não sei se tem as mesmas garantias.
    Sugiro fazer 2 simulações com as mesmas 13 fixas no cologa e na sua planilha Andrade, assim pode ferificar se as 42 excedentes ou faltantes, oferecem risco de não acerto. Um abraço!

    E ai Kalfas...

    Essa planilha do Andrade (que eu não tenho) não é 100% e com certeza não tem as mesmas garantias, o correto é quem pode jogar os 66 jgs pra não passar nervoso apos o resultado,rsrsrs....

    Abraço

    Att. Daniel

    kings

    Mensagens: 297
    Data de inscrição: 10/10/2009
    Localização: Apucarana-Pr.

    minha opiniao pessoal.

    Mensagem por kings em Qua Abr 14, 2010 9:01 pm

    Andrade não que eu esteja aqui fazendo critica,e sim uma opinião,analisando o jogo não tem fundamento,se para acertar os 15 pontos,tem que acertar as 13 fixas e no mínimo 2 das 3 quentes,qualquer outro resultado que não tenha no mínimo uma pedra de 14 ou 15(no exemplo),mesmo acertando as 13 só garante 14 pontos,então nesse caso eu proponho que faça com 12 fixas e 13/3/2/3=11 que garante no mínimo 14 e com muita sorte os 15,com apenas 11 cartelas.Se acertar 10 fixas já paga o jogo,e 9 dá 50%.

    Como não gosto de jogo com muitas fixas,como nesse caso,se pra acertar 11 com 15 numeros já é difícil,imaginam vocês acertar as 13 fixas,é quase que impossível,e ainda ter que acertar no mínimo 2 das 3 quentes,é como jogar 16/15/15/15=16 dá mais lucro,do que as 24

    Nesse ponto concordo com o Kalfas é um jogo inviavel.

    loterias

    Mensagens: 5
    Data de inscrição: 19/04/2011

    Re: LOTOFACIL 25 DEZENAS COM 13 FIXAS - REDUZIDO

    Mensagem por loterias em Qui Maio 12, 2011 9:20 pm

    um dos melhores esquemas com dezenas fixas lotofacil é utilizando 66 apostas, não vi nada igual . Boa Sorte a todos.

    Marco Atropos

    Mensagens: 90
    Data de inscrição: 29/06/2010

    Planilha c/13 fixas

    Mensagem por Marco Atropos em Qua Maio 18, 2011 12:34 am

    Tambem não gosto de planilhas com muitas fixas...Mas essa planilha ate qe foi bem em algumas simulações. Acho qe a planilha ja pronta p/os 14 ou 15 pontos não existe,pelo menos com baixo investimento.
    Deve-se subistituir algumas fixas por numeros qe achamos ser mais viaveis...Esta planilha vai muito bem se a faixa da dezena 20 a 25
    não sair ou sair um numero apenas... É meio dificil mas pode acontecer.

      Data/hora atual: Qua Jul 23, 2014 12:51 pm